Belajar String Skipping

String skipping adalah teknik memainkan gitar yang lebih sering digunakan dalam permainan solo gitar. Biasanya dimainkan oleh gitaris-gitaris genre heavy metal dan rock. Teknik ini sangat sulit dilakukan tetapi jika kamu mampu melakukannya maka kamu akan membuat solo gitar yang kamu mainkan terdengar sangat luar biasa.

String skipping adalah suatu teknik untuk mendapatkan suara gitar yang sangat berbeda dari permainan solo gitar yang biasa dilakukan oleh gitaris. Biasanya dalam memainkan solo gitar kita akan memainkan beberapa not dalam satu senar. Tetapi dalam teknik string skipping kita akan melompati satu atau lebih senar gitar sehingga sangat beresiko sekali senar yang dilompati akan berbunyi jika kita kurang mengusai teknik ini. Untuk contoh nya lihat tab gitar di bawah ini :

Contoh solo gitar yang umum di mainkan

 1 2 3 4 5 6 7 8   1 2 3 4 5 6 7 8   1 2 3 4 5 6 7 8   1 2 3 4 5 6 7 8
e|-|-------------3---|---------------2-|-----------3-2---|-----------------| 
B|-|---------3-5---3-|-------------3---|---------------5-|-5---------------|
G|4|---2-4-5---------|-----------4-----|---------------^^^^^HOLD-----------|
D|4|-----------------|-----------------|-----------------|-----------------|
A|-|-----------------|-----------------|-----------------|-----------------|
E|-|-----------------|-----------------|-----------------|-----------------|
 

Contoh solo gitar dengan  teknik String Skipping
 
---------------|--------------7--|
------------5--|------7^8--10----|
---------2-----|-----------------|
---------------|----9------------|
------3--------|-5---------------|
---------------|-----------------|
 

Perhatikan perbedaan kedua teknik di atas, sangat jauh berbeda sekali bukan? Nah itulah sekilas tentang teknik String Skipping.

Jika kurang paham dengan penjelasan gambar di atas silahkan pelajari cara membaca tab gitar pada posting sebelumnya.
 

0 Response to "Belajar String Skipping"

Posting Komentar